Цитата Криса Ри

"Блюз - это чувства. Музыкальные журналисты часто не понимают этого, но я считаю, блюз - это музыка не только чернокожих людей. Это музыка всех людей, способных ее почувствовать. Чайковский играл блюз, но, правда, по-своему."

Крис Ри
Ближайшие концерты

31 октября 2013 18:30 Royal Albert Hall, London Chris Rea - Bluesfest 2013 Великобритания

Don't Want Your Best Friend

INTRO:



E ------------------------------------------------------------------------

B ------------------------------------------------------------------------

G ------4-4-4---2-1-2-----4-4-4---2-1-2-------4-4-4---2-1-2---------------

D ------4-4-4---2-1-2-----4-4-4---2-1-2-------4-4-4---2-1-2---------------

A ------------------------------------------------------------------------

E ------------------------------------------------------------------------



A E A E A E      

A E A E A E B



A                E A       E    A         E

She's got her independence in a hard fast way

             A   E    A                 E       B

She's got me chasing shadows with everything I try to say

               A       E                      A      E

Some say she's far too quick, some say she's slow to learn

     A    E           A        E               B

But all I know is she gave me love that left afterburn

        A                 B

And its fire feeds me I'm hungry still

   A                B

So baby listen now, I'm at your will

     A        E         A          E        B

But I'm not a flower on your windowsill





B               A     E         B

Don't want your best friend

             A  E       B

Don't need a Godsend

                A           B  A  E

Don't want your new trends

       B

I want you





She's got a silver sabre with a diamond shine

It's not an ego-trip just her frightened way

To keep you blind

Shadow dancing, nowhere fast

You got to meet me half way

Girl if it's gonna last





I remember that first night

I dream of it still

I want that feeling and I want that thrill

I've always loved you and I always will

Take me home



OUTRO:



E ------------------------------------------------------------1-----------

B ------------------------------------------------------------4-----------

G ------4-4-4---2-1-2-----4-4-4---2-1-2-------4-4-4---2-1-2---4-----------

D ------4-4-4---2-1-2-----4-4-4---2-1-2-------4-4-4---2-1-2---4-----------

A ------------------------------------------------------------------------

E ------------------------------------------------------------------------

Дата публикации: Чт, 03/29/2012 - 21:52
 
© Русскоязычный фан-сайт группы Chris Rea.
Копирование информации разрешено только с прямой и индексируемой ссылкой на первоисточник.
Контакты | Информация | Полезные интернет-ресурсы